Power Strings

Music Center

Power Strings, 1st YT release

Top Gun

TUNING: eADGBE

PART 1
E|----3--3--1--0--1--0--------------0-----0--1--0-----0----|
B|-1--------------------3--3--1--3-----3-----------1-----3-|
G|---------------------------------------------------------|
D|---------------------------------------------------------|
A|---------------------------------------------------------|
e|---------------------------------------------------------|

PART 2
E|----3--3--1--0--1--0--------------0-----0--1--0-----3----|
B|-1--------------------3--3--1--3-----3-----------1-------|
G|---------------------------------------------------------|
D|---------------------------------------------------------|
A|---------------------------------------------------------|
e|---------------------------------------------------------|

PART 3
E|----9--9--7--6--7--6--------------6-----6--7--6-----6----|
B|-7--------------------9--9--7--9-----9-----------7-----9-|
G|---------------------------------------------------------|
D|---------------------------------------------------------|
A|---------------------------------------------------------|
e|---------------------------------------------------------|

PART 4
E|----9--9--7--6--7--6--------------6-----6--7--6-----9----|
B|-7--------------------9--9--7--9-----9-----------7-------|
G|---------------------------------------------------------|
D|---------------------------------------------------------|
A|---------------------------------------------------------|
e|---------------------------------------------------------|

PART 5
E|----3--3--1--0--1--0--------------0-----0--1--0-----0----|
B|-1--------------------3--3--1--3-----3-----------1-----3-|
G|---------------------------------------------------------|
D|---------------------------------------------------------|
A|---------------------------------------------------------|
e|---------------------------------------------------------|

PART 6
E|----3--3--1--0--1--0--------------0-----0--1--0--------------|
B|-1--------------------3--3--1--3-----3-----------1---3--1--1-|
G|-------------------------------------------------------------|
D|-------------------------------------------------------------|
A|-------------------------------------------------------------|
e|---------------------------------------------------------|

Titanic

It is very simple but also sound very good!
ENJOY!

|---------------------0-2-0------------------|
|3-3-3-3-2-3---3-2-3----------3-3-3-3-2--3---|
|-------------------------------------------2| x2
|--------------------------------------------|
|--------------------------------------------|
|--------------------------------------------|

|-----0------5-3-2-0--2-3-2-0-----------------|
|-3----------------------------3-2-3--3-------|
|---------2-----------------------------2-----| x2
|---------------------------------------------|
|---------------------------------------------|
|---------------------------------------------|

|-----0------5-3-2-0--2-3-2-0-----------------0-2-0----|
|-3----------------------------3-2-3--3-2-3---------3--|
|---------2--------------------------------------------|
|------------------------------------------------------|
|------------------------------------------------------|
|------------------------------------------------------|

Pirates Of The Caribbean

Pirates Of The Caribbean theme song
Tabbed By: guitardave06

E----------------------0-------------
B------0-0--0-2-3-3--3---2-2-0------0
G--0-2--------------------------2-2-- 2x
D------------------------------------
A------------------------------------
E------------------------------------

E----------------------0-3-3-2-0-2--------------0-2----------------
B------0-0--0-2-3-3--3-------------0--0-2-3-3-3-----0--0-3-2-0----0
G--0-2---------------------------------------------------------2---
D------------------------------------------------------------------
A------------------------------------------------------------------
E------------------------------------------------------------------

OTHER PART

E-----0-2-3-2-2-2-2-0--0----------------------
B-0-3--------------------3-2-3-2-2-0----------
G---------------------------------------------
D---------------------------------------------
A---------------------------------------------
E---------------------------------------------

E-----0-2-3-2-2-5-2-0--0----------------------
B-0-3--------------------3-2-3-2-2-0----------
G---------------------------------------------
D---------------------------------------------
A---------------------------------------------
E---------------------------------------------

Movie Theme: Star Wars Imperial Death March

Imperial Death March
Tabbed By: VeNG3nCE

Guitar One

e|-----------------------------------------------|
B|-----------------------------------------------|
G|-----------------------------------------------|
D|-------------------7-7-7-8---------------------|
A|-5-5-5---8-5---8-5---------8-----8-5-----------|
E|-------6-----6---------------9-6---------------|

Guitar Two

e|-----------------------------------------------|
B|---------------------9-9-9-10------------------|
G|-7-7-7---10-7---10-7----------10------10-7-----|
D|-------8------8------------------11-8----------|
A|-----------------------------------------------|
E|-----------------------------------------------|

Repeat As Wanted

You Can Play Either Guitar Part, For A Higher Pitch If That Is the kinda sound you
like
to hear

007 Theme – wersja 2

E:-----------------------------------------------------|
B:-----------------------------------------------------|
G:-----------------------------------------------------|
D:-----------------------------10----------------------|
A:--------------------------------202------------------|
E:--0-2-2-2-0-00-3-3-3-3-2-2-2---------3-2-2-1-3-------|

007 Theme – wersja 1

-JAMES BOND 007 THEME-

PART 1
INTRO
e|------------------|
B|------------------|
G|------------------|
D|------------------|
A|-2-3-4-3-2-3-4-3--|
E|--0-0-0-0-0-0-0-0-|

PART 2
e|------------------------------|
B|------------------------------|
G|------------------------------|REPEAT 2X
D|------------------------------|
A|------------------------------|
E|0-222-2-0-0-0-0-333-3-2-2-2---|

PART 3
3RD TIME
e|---------------------------------------|
B|---------------------------------------|
G|---------------------------------------|
D|-----------------------------2-0-------|
A|---------------------------------2-0-2-|
E|-0-222-2-0-0-0-0-333-3-2-1-0-----------|

REPEAT PARTS 2 AND 3 AND THEN DO:

PART 4
e|-----0----------------------------------|
B|------3----0----------------------------|
G|--0------03---0-------------------------|
D|-2---------------4---2------------------|
A|--------------------2-3-----------------|
E|----------------------------------------|

PART 5
e|-----0----------------------------------|
B|------3----0----------------------------|
G|--0------03---0-------------------------|
D|-2---------------4---1-2----------------|
A|--------------------2-------------------|
E|----------------------------------------|

PART 6
e|----------------------------------------|
B|----------------------------------------|
G|-------------0-0-0----------------------|
D|-2-2-2-4-2-4-------4-2-4----------------|
A|----------------------------------------|
E|----------------------------------------|

e|----------------------------------------|
B|-0-0----0-0----0-0-0-0-0----------------|
G|----------------------------------------|
D|----------------------------------------|
A|-----2------2---------------------------|
E|----------------------------------------|

REPEAT PARTS 1 AND 2 AND THEN DO:

e|---------------------4-3-0-4-8-7------|
B|-------------4-3-0-4------------------|
G|-----4-3-0-4--------------------------|
D|-0-4----------------------------------|
A|--------------------------------------|
E|--------------------------------------|

STRUM:
E|------2--------|
B|---------------|
G|---------------|
D|---------------|
A|------1--------|
E|------2--------|

Braveheart

BraveHeart Theme Tab
Tabed By: Anthony Daly

Notes: Not originally for guitar, this is the Bagpipes which are the main
melody of the tune

* repeat bar sign
*

E|---------------------|--5------------8----|
B|-----------5----8----|--------------------|
G|*--------------------|--------------------|
D|*--------------------|--------------------|
A|---------------------|--------------------|
E|---------------------|--------------------|

--7----8--7--5---------|-----------5--------|---------------------|
------------------8----|--8-----------------|--5--------5----8----|
-----------------------|--------------------|---------------------|
-----------------------|--------------------|---------------------|
-----------------------|--------------------|---------------------|
-----------------------|--------------------|---------------------|

--5------------8----|--7----8--7--5---------|-------------------|
--------------------|------------------8----|--8----------------|
--------------------|-----------------------|-------------------|
--------------------|-----------------------|-------------------|
--------------------|-----------------------|-------------------|
--------------------|-----------------------|-------------------|

--5-----------------||------------------|----------------8----|
--------------------||------------------|----------10---------|
-------------------*||------------------|---------------------|
-------------------*||------------------|---------------------|
--------------------||------------------|---------------------|
--------------------||------------------|---------------------|

--10--------8----------|----------------------|--6----5----3----1----|
-----------------10----|--8--------------8----|----------------------|
-----------------------|-----------10---------|----------------------|
-----------------------|----------------------|----------------------|
-----------------------|----------------------|----------------------|
-----------------------|----------------------|----------------------|

----------------1----|-------------------|------------------|
--3--------1---------|--3----------------|------------------|
---------------------|-------------------|------------------|
---------------------|-------------------|------------------|
---------------------|-------------------|------------------|
---------------------|-------------------|------------------|

|-------------12----15----|--17------------20----|--19----20--19--17----15----|
|---17--------------------|----------------------|----------------------------|
|*------------------------|----------------------|----------------------------|
|*------------------------|----------------------|----------------------------|
|-------------------------|----------------------|----------------------------|
|-------------------------|----------------------|----------------------------|

--15--------17---------||--17----------------|------------------||
-----------------------||--17----------------|------------------||
----------------------*||--------------------|------------------||
----------------------*||--------------------|------------------||
-----------------------||--------------------|------------------||
-----------------------||--------------------|------------------||

Ant3

Wlazł kotek na płotek

e|-----------|-----------|-----------|-----------|-----------|-----------|
H|-----------|-----------|-----------|-----------|-----------|-----------|
G|--0--------|-----------|------0----|--0--------|-----------|-----------|
D|-----2--2--|--3--0--0--|----2------|-----2--2--|--3--0--0--|----2------|
A|-----------|-----------|--3--------|-----------|-----------|--3---3----|
E|-----------|-----------|-----------|-----------|-----------|-----------|

Sto lat

|------------------|--------------------|----------------------|-------------|
|------------------|--------------------|------------3-2-------|-2--2--2--3--|
|-2-2--2-4-2-0---0-|-0--0--0-2-0--------|-2-2-2-2--2-----4-3-4-|-------------|
|--4-4---------4---|--2--2-------4-2-4~-|----4---4-------------|-------------|
|------------------|--------------------|----------------------|-------------|
|------------------|--------------------|----------------------|-------------|