Power Strings

Music Center

Braveheart

BraveHeart Theme Tab
Tabed By: Anthony Daly

Notes: Not originally for guitar, this is the Bagpipes which are the main
melody of the tune

* repeat bar sign
*

E|---------------------|--5------------8----|
B|-----------5----8----|--------------------|
G|*--------------------|--------------------|
D|*--------------------|--------------------|
A|---------------------|--------------------|
E|---------------------|--------------------|

--7----8--7--5---------|-----------5--------|---------------------|
------------------8----|--8-----------------|--5--------5----8----|
-----------------------|--------------------|---------------------|
-----------------------|--------------------|---------------------|
-----------------------|--------------------|---------------------|
-----------------------|--------------------|---------------------|

--5------------8----|--7----8--7--5---------|-------------------|
--------------------|------------------8----|--8----------------|
--------------------|-----------------------|-------------------|
--------------------|-----------------------|-------------------|
--------------------|-----------------------|-------------------|
--------------------|-----------------------|-------------------|

--5-----------------||------------------|----------------8----|
--------------------||------------------|----------10---------|
-------------------*||------------------|---------------------|
-------------------*||------------------|---------------------|
--------------------||------------------|---------------------|
--------------------||------------------|---------------------|

--10--------8----------|----------------------|--6----5----3----1----|
-----------------10----|--8--------------8----|----------------------|
-----------------------|-----------10---------|----------------------|
-----------------------|----------------------|----------------------|
-----------------------|----------------------|----------------------|
-----------------------|----------------------|----------------------|

----------------1----|-------------------|------------------|
--3--------1---------|--3----------------|------------------|
---------------------|-------------------|------------------|
---------------------|-------------------|------------------|
---------------------|-------------------|------------------|
---------------------|-------------------|------------------|

|-------------12----15----|--17------------20----|--19----20--19--17----15----|
|---17--------------------|----------------------|----------------------------|
|*------------------------|----------------------|----------------------------|
|*------------------------|----------------------|----------------------------|
|-------------------------|----------------------|----------------------------|
|-------------------------|----------------------|----------------------------|

--15--------17---------||--17----------------|------------------||
-----------------------||--17----------------|------------------||
----------------------*||--------------------|------------------||
----------------------*||--------------------|------------------||
-----------------------||--------------------|------------------||
-----------------------||--------------------|------------------||

Ant3

3 Responses to “Braveheart”

  1. What I wouldnt give to have a debate with you about this. You just say so many things that arrive from nowhere that Im fairly certain Id have a fair shot. Your blog is wonderful visually, I mean people wont be bored. But others who can see past the videos and the layout wont be so impressed together with your generic understanding of this subject.

  2. Great! pisze:

    I agree!Something new!

Leave a Reply