Power Strings

Music Center

Pirates Of The Caribbean

Pirates Of The Caribbean theme song
Tabbed By: guitardave06

E----------------------0-------------
B------0-0--0-2-3-3--3---2-2-0------0
G--0-2--------------------------2-2-- 2x
D------------------------------------
A------------------------------------
E------------------------------------

E----------------------0-3-3-2-0-2--------------0-2----------------
B------0-0--0-2-3-3--3-------------0--0-2-3-3-3-----0--0-3-2-0----0
G--0-2---------------------------------------------------------2---
D------------------------------------------------------------------
A------------------------------------------------------------------
E------------------------------------------------------------------

OTHER PART

E-----0-2-3-2-2-2-2-0--0----------------------
B-0-3--------------------3-2-3-2-2-0----------
G---------------------------------------------
D---------------------------------------------
A---------------------------------------------
E---------------------------------------------

E-----0-2-3-2-2-5-2-0--0----------------------
B-0-3--------------------3-2-3-2-2-0----------
G---------------------------------------------
D---------------------------------------------
A---------------------------------------------
E---------------------------------------------

One Response to “Pirates Of The Caribbean”

Leave a Reply