Power Strings

Music Center

Top Gun

TUNING: eADGBE

PART 1
E|----3--3--1--0--1--0--------------0-----0--1--0-----0----|
B|-1--------------------3--3--1--3-----3-----------1-----3-|
G|---------------------------------------------------------|
D|---------------------------------------------------------|
A|---------------------------------------------------------|
e|---------------------------------------------------------|

PART 2
E|----3--3--1--0--1--0--------------0-----0--1--0-----3----|
B|-1--------------------3--3--1--3-----3-----------1-------|
G|---------------------------------------------------------|
D|---------------------------------------------------------|
A|---------------------------------------------------------|
e|---------------------------------------------------------|

PART 3
E|----9--9--7--6--7--6--------------6-----6--7--6-----6----|
B|-7--------------------9--9--7--9-----9-----------7-----9-|
G|---------------------------------------------------------|
D|---------------------------------------------------------|
A|---------------------------------------------------------|
e|---------------------------------------------------------|

PART 4
E|----9--9--7--6--7--6--------------6-----6--7--6-----9----|
B|-7--------------------9--9--7--9-----9-----------7-------|
G|---------------------------------------------------------|
D|---------------------------------------------------------|
A|---------------------------------------------------------|
e|---------------------------------------------------------|

PART 5
E|----3--3--1--0--1--0--------------0-----0--1--0-----0----|
B|-1--------------------3--3--1--3-----3-----------1-----3-|
G|---------------------------------------------------------|
D|---------------------------------------------------------|
A|---------------------------------------------------------|
e|---------------------------------------------------------|

PART 6
E|----3--3--1--0--1--0--------------0-----0--1--0--------------|
B|-1--------------------3--3--1--3-----3-----------1---3--1--1-|
G|-------------------------------------------------------------|
D|-------------------------------------------------------------|
A|-------------------------------------------------------------|
e|---------------------------------------------------------|

Leave a Reply